Escuche Tío Simón!

INTRO:

B :--------------------------------------------------

F#:-----3-----3-----3-----3-----3-----3-----3-----3--

D :---2-----2-----2-----2-----2-----2-----2-----2----

A :-0-----0-----0-----0-----0-----0-----0-----0------

   


 

B :--------------------------------------------------

F#:-----3-----3-----3-----3-----3-----3-----3-----3--

D :---3-----3-----3-----3-----3-----3-----3-----3----

A :-0-----0-----0-----0-----0-----0-----0-----0------

   


 

B :--------------------------------------------------

F#:-----3-----3-----3-----3-----3-----3-----3-----3--

D :---2-----2-----2-----2-----2-----2-----2-----2----

A :-0-----0-----0-----0-----0-----0-----0-----0------

   


 

B :--------------------------------------------------

F#:-----2-----2-----2-----2-----2-----2-----2-----2--

D :---2-----2-----2-----2-----2-----2-----2-----2----

A :-2-----2-----2-----2-----2-----2-----2-----2------

   


 

B :--------------------------------------------------

F#:-----3-----3-----3-----3-----3-----3-----3-----3--

D :---2-----2-----2-----2-----2-----2-----2-----2----

A :-0-----0-----0-----0-----0-----0-----0-----0------

   

(Se repite)


 

   

Quizás Uds se pregunten qué hago aquí. Quizás dirá:

 

Caracha, este sobrinito no tiene con quién hablá!

                                         

Pero lo cierto es que quiero hacer un desahogo

porque me ahogo al saber que lo que Ud ha dejado

                   

en vida, hoy a la basura se tira y es por culpa

                                    

de unos pocos. Ud que fue un gran cantante,

un humorista, un soñador, me sirve de receptor para

               

poder expresarle    lo que aquí en mi pecho arde

                                     

y no me deja dormir, este doloroso sentir que a veces

hace que no avance. Si hay algo que Ud nos enseñó,

          

fue a ser siempre positivo, hoy disculpas yo le pido

                     

esta no es la ocasión;     para botar mi dolor

yo le pido que me escuche, que se siente en una nube

 

y ponga mucha atención, una tonada, una canción,

            

es lo que le tengo preparado porque hoy traigo un guayabo

y es muy grande Tío Simón.


 

   


 

Ahi vamos a hablar un ratico, Tío Simón,

                   

porque traigo un guayabo,              

                                

resulta que Gabriel     desde la tarde de ayer,     

                             

ya no está respirando faltó la medicina Tío Simón,

               

hoy lo llora su madre Tío Simón.


 

                                              

Escúcheme un ratito Tío Simón, me pesa este guayabo

resulta que Daniela, ya no va pa' la escuela,

                              

ya no está caminando, le falta la comida Tío Simón,

                  

su hermana está llorando Tío Simón.


 

                          

Sus zapatitos rotos y la ropita sucia

                                      

y quien se alza y denuncia, lo meten al calabozo

                                       

y aunque yo esté seguro que esto no es para siempre

                                   

no puedo contenerme, no puedo hacerme el duro.


 

                            

Aquí me encuentro yo  pidiéndole maestro

                              

que escuche lo que siento, escuche Tío  Simón.


 

                                                 

Escúcheme un ratito Tío Simón, porque no estoy contento

porque veo a "chamitos" diciendo groserías

                                   

y drogas consumiendo, en dónde están sus padres Tío Simón,

                

se pierden los valores Tío Simón.


 

                           

Y van al basurero buscando que comer,

                                  

mientras se ve perder la infancia de ensueños,

                                        

y aunque yo estoy seguro que esto no es para siempre

                                   

no puedo contenerme, no puedo hacerme el duro.


 

                            

Aquí me encuentro yo  pidiéndole maestro

                                          

que escuche lo que siento ... escuche Tío Simón.  


 

VIDEO DE LA CANCIÓN



Ver más canciones y acordes en www.micuatro.com

Deja un comentario

Tu dirección de correo electrónico no será publicada. Los campos obligatorios están marcados con *