Cuatro pollitos

 B:-----------------------------------
F#:-5-5-5-5-3---------5-5-5-5-3-------
 D:-5---5---4---4-----5---5---4---4---
 A:-5---5---5-5---5---5---5---5-5---5-

 
B:--------------------------- F#:-5-5-5-5-3---5-3---3------- D:-5---5---4-------5---5-4--- A:-5---5---5-5---------------

                         

     Cuatro pollitos tiene Cristina,

                        

uno que canta, otro que trina,

                

otro que toca la bandolina

           

y el otro toma la medicina. (bis)


 

 B:-----------3-------------3---
F#:-5-5-5-5-3-3---5-5-5-5-3-3---
 D:-5---5---4-4---5---4---4-4---
 A:-5---5---5-5---5---5---5-5---

 
B:--------------------------- F#:-5-5-5-5-3---5-3---3------- D:-5---5---4-------5---5-4--- A:-5---5---5-5---------------

                        

     Cuatro pollitos tiene Manuela,

                        

uno que canta, otro que vuela,

                     

otro que marcha para la escuela

               

y el otro tiene dolor de muela. (bis)


 

 B:-----------3-------------3---
F#:-5-5-5-5-3-3---5-5-5-5-3-3---
 D:-5---5---4-4---5---4---4-4---
 A:-5---5---5-5---5---5---5-5---

 
B:--------------------------- F#:-5-5-5-5-3---5-3---3------- D:-5---5---4-------5---5-4--- A:-5---5---5-5---------------

                       

     Cuatro pollitos tiene María,

                       

uno que canta, otro que pía,

                

otro que toca la sinfonía

              

y el otro quiere ser policía. (bis)


 

 B:-----------3-------------3---
F#:-5-5-5-5-3-3---5-5-5-5-3-3---
 D:-5---5---4-4---5---4---4-4---
 A:-5---5---5-5---5---5---5-5---

 
B:--------------------------- F#:-5-5-5-5-3---5-3---3------- D:-5---5---4-------5---5-4--- A:-5---5---5-5---------------

                       

     Cuatro pollitos tiene Ruperta,

                        

uno que duerme, otro despierta,

                  

otro jugando cierra la puerta

               

y el otro pollo la deja abierta. (bis)


 

 B:---------------------------
F#:-5-5-5-5-3---5-3---3-------
 D:-5---5---4-------5---5-4---
 A:-5---5---5-5---------------


 



Ver más canciones y acordes en www.micuatro.com

Quizá también te interese:

Deja un comentario

Tu dirección de correo electrónico no será publicada. Los campos obligatorios están marcados con *